  0
SECTION
  2
HEADER
  9
$ACADVER
  1
AC1014
  9
$HANDSEED
  5
FFFF
  9
$MEASUREMENT
 70
     1
  0
ENDSEC
  0
SECTION
  2
TABLES
  0
TABLE
  2
VPORT
  5
8
330
0
100
AcDbSymbolTable
 70
     4
  0
VPORT
  5
2E
330
8
100
AcDbSymbolTableRecord
100
AcDbViewportTableRecord
  2
*ACTIVE
 70
     0
 10
0.0
 20
0.0
 11
1.0
 21
1.0
 12
210.0
 22
148.5
 13
0.0
 23
0.0
 14
10.0
 24
10.0
 15
10.0
 25
10.0
 16
0.0
 26
0.0
 36
1.0
 17
0.0
 27
0.0
 37
0.0
 40
341.0
 41
1.24
 42
50.0
 43
0.0
 44
0.0
 50
0.0
 51
0.0
 71
     0
 72
   100
 73
     1
 74
     3
 75
     0
 76
     0
 77
     0
 78
     0
  0
ENDTAB
  0
TABLE
  2
LTYPE
  5
5
330
0
100
AcDbSymbolTable
 70
     1
  0
LTYPE
  5
14
330
5
100
AcDbSymbolTableRecord
100
AcDbLinetypeTableRecord
  2
BYBLOCK
 70
     0
  3

 72
    65
 73
     0
 40
0.0
  0
LTYPE
  5
15
330
5
100
AcDbSymbolTableRecord
100
AcDbLinetypeTableRecord
  2
BYLAYER
 70
     0
  3

 72
    65
 73
     0
 40
0.0
  0
LTYPE
  5
16
330
5
100
AcDbSymbolTableRecord
100
AcDbLinetypeTableRecord
  2
CONTINUOUS
 70
     0
  3
Solid line
 72
    65
 73
     0
 40
0.0
  0
ENDTAB
  0
TABLE
  2
LAYER
  5
2
100
AcDbSymbolTable
 70
6
  0
LAYER
  5
50
100
AcDbSymbolTableRecord
100
AcDbLayerTableRecord
  2
0
 70
0
  6
CONTINUOUS
  0
LAYER
  5
51
100
AcDbSymbolTableRecord
100
AcDbLayerTableRecord
  2
boxoutline
 70
0
  6
CONTINUOUS
  0
LAYER
  5
52
100
AcDbSymbolTableRecord
100
AcDbLayerTableRecord
  2
include
 70
0
  6
CONTINUOUS
  0
LAYER
  5
53
100
AcDbSymbolTableRecord
100
AcDbLayerTableRecord
  2
Cutout
 70
0
  6
CONTINUOUS
  0
LAYER
  5
54
100
AcDbSymbolTableRecord
100
AcDbLayerTableRecord
  2
exclude
 70
0
  6
CONTINUOUS
  0
LAYER
  5
55
100
AcDbSymbolTableRecord
100
AcDbLayerTableRecord
  2
markers
 70
0
  6
CONTINUOUS
  0
ENDTAB
  0
TABLE
  2
STYLE
  5
3
330
0
100
AcDbSymbolTable
 70
     1
  0
STYLE
  5
11
330
3
100
AcDbSymbolTableRecord
100
AcDbTextStyleTableRecord
  2
STANDARD
 70
     0
 40
0.0
 41
1.0
 50
0.0
 71
     0
 42
2.5
  3
txt
  4

  0
ENDTAB
  0
TABLE
  2
VIEW
  5
6
330
0
100
AcDbSymbolTable
 70
     0
  0
ENDTAB
  0
TABLE
  2
UCS
  5
7
330
0
100
AcDbSymbolTable
 70
     0
  0
ENDTAB
  0
TABLE
  2
APPID
  5
9
330
0
100
AcDbSymbolTable
 70
     2
  0
APPID
  5
12
330
9
100
AcDbSymbolTableRecord
100
AcDbRegAppTableRecord
  2
ACAD
 70
     0
  0
ENDTAB
  0
TABLE
  2
DIMSTYLE
  5
A
330
0
100
AcDbSymbolTable
 70
     1
  0
DIMSTYLE
105
27
330
A
100
AcDbSymbolTableRecord
100
AcDbDimStyleTableRecord
  2
ISO-25
 70
     0
  3

  4

  5

  6

  7

 40
1.0
 41
2.5
 42
0.625
 43
3.75
 44
1.25
 45
0.0
 46
0.0
 47
0.0
 48
0.0
140
2.5
141
2.5
142
0.0
143
0.03937007874016
144
1.0
145
0.0
146
1.0
147
0.625
 71
     0
 72
     0
 73
     0
 74
     0
 75
     0
 76
     0
 77
     1
 78
     8
170
     0
171
     3
172
     1
173
     0
174
     0
175
     0
176
     0
177
     0
178
     0
270
     2
271
     2
272
     2
273
     2
274
     3
340
11
275
     0
280
     0
281
     0
282
     0
283
     0
284
     8
285
     0
286
     0
287
     3
288
     0
  0
ENDTAB
  0
TABLE
  2
BLOCK_RECORD
  5
1
330
0
100
AcDbSymbolTable
 70
     1
  0
BLOCK_RECORD
  5
1F
330
1
100
AcDbSymbolTableRecord
100
AcDbBlockTableRecord
  2
*MODEL_SPACE
  0
BLOCK_RECORD
  5
1B
330
1
100
AcDbSymbolTableRecord
100
AcDbBlockTableRecord
  2
*PAPER_SPACE
  0
ENDTAB
  0
ENDSEC
  0
SECTION
  2
BLOCKS
  0
BLOCK
  5
20
330
1F
100
AcDbEntity
  8
0
100
AcDbBlockBegin
  2
*MODEL_SPACE
 70
     0
 10
0.0
 20
0.0
 30
0.0
  3
*MODEL_SPACE
  1

  0
ENDBLK
  5
21
330
1F
100
AcDbEntity
  8
0
100
AcDbBlockEnd
  0
BLOCK
  5
1C
330
1B
100
AcDbEntity
 67
     1
  8
0
100
AcDbBlockBegin
  2
*PAPER_SPACE
  1

  0
ENDBLK
  5
1D
330
1B
100
AcDbEntity
 67
     1
  8
0
100
AcDbBlockEnd
  0
ENDSEC
  0
SECTION
  2
ENTITIES
  0
LINE
  5
100
100
AcDbEntity
  8
boxoutline
 62
7
100
AcDbLine
 10
-0.000009
 20
221.000008
 30
0.0
 11
149.999981
 21
221.000008
 31
0.0
  0
LINE
  5
101
100
AcDbEntity
  8
boxoutline
 62
7
100
AcDbLine
 10
149.999981
 20
221.000008
 30
0.0
 11
149.999981
 21
0.000010
 31
0.0
  0
LINE
  5
102
100
AcDbEntity
  8
boxoutline
 62
7
100
AcDbLine
 10
149.999981
 20
0.000010
 30
0.0
 11
-0.000009
 21
0.000010
 31
0.0
  0
LINE
  5
103
100
AcDbEntity
  8
boxoutline
 62
7
100
AcDbLine
 10
-0.000009
 20
0.000010
 30
0.0
 11
-0.000009
 21
221.000008
 31
0.0
  0
SPLINE
  5
104
100
AcDbEntity
  8
include
 62
7
100
AcDbSpline
 70
8
 71
3
 72
8
 73
4
 74
0
 40
0
 40
0
 40
0
 40
0
 40
1
 40
1
 40
1
 40
1
 10
13.500077
 20
212.500209
 30
0.0
 10
13.500096
 20
211.174101
 30
0.0
 10
12.973311
 20
209.902301
 30
0.0
 10
12.035611
 20
208.964601
 30
0.0
  0
SPLINE
  5
105
100
AcDbEntity
  8
include
 62
7
100
AcDbSpline
 70
8
 71
3
 72
8
 73
4
 74
0
 40
0
 40
0
 40
0
 40
0
 40
1
 40
1
 40
1
 40
1
 10
12.035611
 20
208.964601
 30
0.0
 10
11.097912
 20
208.026901
 30
0.0
 10
9.826113
 20
207.500115
 30
0.0
 10
8.500005
 20
207.500134
 30
0.0
  0
SPLINE
  5
106
100
AcDbEntity
  8
include
 62
7
100
AcDbSpline
 70
8
 71
3
 72
8
 73
4
 74
0
 40
0
 40
0
 40
0
 40
0
 40
1
 40
1
 40
1
 40
1
 10
8.500005
 20
207.500134
 30
0.0
 10
8.500005
 20
207.500134
 30
0.0
 10
8.500005
 20
115.500092
 30
0.0
 10
8.500005
 20
115.500092
 30
0.0
  0
SPLINE
  5
107
100
AcDbEntity
  8
include
 62
7
100
AcDbSpline
 70
8
 71
3
 72
8
 73
4
 74
0
 40
0
 40
0
 40
0
 40
0
 40
1
 40
1
 40
1
 40
1
 10
8.500005
 20
115.500092
 30
0.0
 10
9.826115
 20
115.500111
 30
0.0
 10
11.097916
 20
114.973324
 30
0.0
 10
12.035615
 20
114.035621
 30
0.0
  0
SPLINE
  5
108
100
AcDbEntity
  8
include
 62
7
100
AcDbSpline
 70
8
 71
3
 72
8
 73
4
 74
0
 40
0
 40
0
 40
0
 40
0
 40
1
 40
1
 40
1
 40
1
 10
12.035615
 20
114.035621
 30
0.0
 10
12.973315
 20
113.097919
 30
0.0
 10
13.500099
 20
111.826116
 30
0.0
 10
13.500077
 20
110.500007
 30
0.0
  0
SPLINE
  5
109
100
AcDbEntity
  8
include
 62
7
100
AcDbSpline
 70
8
 71
3
 72
8
 73
4
 74
0
 40
0
 40
0
 40
0
 40
0
 40
1
 40
1
 40
1
 40
1
 10
13.500077
 20
110.500007
 30
0.0
 10
13.500096
 20
109.173899
 30
0.0
 10
12.973311
 20
107.902099
 30
0.0
 10
12.035611
 20
106.964399
 30
0.0
  0
SPLINE
  5
10a
100
AcDbEntity
  8
include
 62
7
100
AcDbSpline
 70
8
 71
3
 72
8
 73
4
 74
0
 40
0
 40
0
 40
0
 40
0
 40
1
 40
1
 40
1
 40
1
 10
12.035611
 20
106.964399
 30
0.0
 10
11.097912
 20
106.026699
 30
0.0
 10
9.826113
 20
105.499913
 30
0.0
 10
8.500005
 20
105.499932
 30
0.0
  0
SPLINE
  5
10b
100
AcDbEntity
  8
include
 62
7
100
AcDbSpline
 70
8
 71
3
 72
8
 73
4
 74
0
 40
0
 40
0
 40
0
 40
0
 40
1
 40
1
 40
1
 40
1
 10
8.500005
 20
105.499932
 30
0.0
 10
8.500005
 20
105.499932
 30
0.0
 10
8.500005
 20
13.499899
 30
0.0
 10
8.500005
 20
13.499899
 30
0.0
  0
SPLINE
  5
10c
100
AcDbEntity
  8
include
 62
7
100
AcDbSpline
 70
8
 71
3
 72
8
 73
4
 74
0
 40
0
 40
0
 40
0
 40
0
 40
1
 40
1
 40
1
 40
1
 10
8.500005
 20
13.499899
 30
0.0
 10
9.826113
 20
13.499918
 30
0.0
 10
11.097912
 20
12.973131
 30
0.0
 10
12.035611
 20
12.035431
 30
0.0
  0
SPLINE
  5
10d
100
AcDbEntity
  8
include
 62
7
100
AcDbSpline
 70
8
 71
3
 72
8
 73
4
 74
0
 40
0
 40
0
 40
0
 40
0
 40
1
 40
1
 40
1
 40
1
 10
12.035611
 20
12.035431
 30
0.0
 10
12.973311
 20
11.097731
 30
0.0
 10
13.500096
 20
9.825932
 30
0.0
 10
13.500077
 20
8.499824
 30
0.0
  0
SPLINE
  5
10e
100
AcDbEntity
  8
include
 62
7
100
AcDbSpline
 70
8
 71
3
 72
8
 73
4
 74
0
 40
0
 40
0
 40
0
 40
0
 40
1
 40
1
 40
1
 40
1
 10
13.500077
 20
8.499824
 30
0.0
 10
13.500077
 20
8.499824
 30
0.0
 10
136.499893
 20
8.499824
 30
0.0
 10
136.499893
 20
8.499824
 30
0.0
  0
SPLINE
  5
10f
100
AcDbEntity
  8
include
 62
7
100
AcDbSpline
 70
8
 71
3
 72
8
 73
4
 74
0
 40
0
 40
0
 40
0
 40
0
 40
1
 40
1
 40
1
 40
1
 10
136.499893
 20
8.499824
 30
0.0
 10
136.499873
 20
9.825932
 30
0.0
 10
137.026659
 20
11.097732
 30
0.0
 10
137.964359
 20
12.035432
 30
0.0
  0
SPLINE
  5
110
100
AcDbEntity
  8
include
 62
7
100
AcDbSpline
 70
8
 71
3
 72
8
 73
4
 74
0
 40
0
 40
0
 40
0
 40
0
 40
1
 40
1
 40
1
 40
1
 10
137.964359
 20
12.035432
 30
0.0
 10
138.902059
 20
12.973133
 30
0.0
 10
140.173859
 20
13.499918
 30
0.0
 10
141.499967
 20
13.499899
 30
0.0
  0
LINE
  5
111
100
AcDbEntity
  8
include
 62
7
100
AcDbLine
 10
141.499967
 20
13.499899
 30
0.0
 11
141.499967
 21
105.499932
 31
0.0
  0
SPLINE
  5
112
100
AcDbEntity
  8
include
 62
7
100
AcDbSpline
 70
8
 71
3
 72
8
 73
4
 74
0
 40
0
 40
0
 40
0
 40
0
 40
1
 40
1
 40
1
 40
1
 10
141.499967
 20
105.499932
 30
0.0
 10
140.173859
 20
105.499912
 30
0.0
 10
138.902059
 20
106.026698
 30
0.0
 10
137.964359
 20
106.964398
 30
0.0
  0
SPLINE
  5
113
100
AcDbEntity
  8
include
 62
7
100
AcDbSpline
 70
8
 71
3
 72
8
 73
4
 74
0
 40
0
 40
0
 40
0
 40
0
 40
1
 40
1
 40
1
 40
1
 10
137.964359
 20
106.964398
 30
0.0
 10
137.026659
 20
107.902098
 30
0.0
 10
136.499873
 20
109.173898
 30
0.0
 10
136.499893
 20
110.500007
 30
0.0
  0
SPLINE
  5
114
100
AcDbEntity
  8
include
 62
7
100
AcDbSpline
 70
8
 71
3
 72
8
 73
4
 74
0
 40
0
 40
0
 40
0
 40
0
 40
1
 40
1
 40
1
 40
1
 10
136.499893
 20
110.500007
 30
0.0
 10
136.499870
 20
111.826117
 30
0.0
 10
137.026654
 20
113.097920
 30
0.0
 10
137.964355
 20
114.035622
 30
0.0
  0
SPLINE
  5
115
100
AcDbEntity
  8
include
 62
7
100
AcDbSpline
 70
8
 71
3
 72
8
 73
4
 74
0
 40
0
 40
0
 40
0
 40
0
 40
1
 40
1
 40
1
 40
1
 10
137.964355
 20
114.035622
 30
0.0
 10
138.902055
 20
114.973325
 30
0.0
 10
140.173857
 20
115.500112
 30
0.0
 10
141.499967
 20
115.500092
 30
0.0
  0
SPLINE
  5
116
100
AcDbEntity
  8
include
 62
7
100
AcDbSpline
 70
8
 71
3
 72
8
 73
4
 74
0
 40
0
 40
0
 40
0
 40
0
 40
1
 40
1
 40
1
 40
1
 10
141.499967
 20
115.500092
 30
0.0
 10
141.499967
 20
115.500092
 30
0.0
 10
141.499967
 20
207.500134
 30
0.0
 10
141.499967
 20
207.500134
 30
0.0
  0
SPLINE
  5
117
100
AcDbEntity
  8
include
 62
7
100
AcDbSpline
 70
8
 71
3
 72
8
 73
4
 74
0
 40
0
 40
0
 40
0
 40
0
 40
1
 40
1
 40
1
 40
1
 10
141.499967
 20
207.500134
 30
0.0
 10
140.173859
 20
207.500114
 30
0.0
 10
138.902059
 20
208.026900
 30
0.0
 10
137.964359
 20
208.964600
 30
0.0
  0
SPLINE
  5
118
100
AcDbEntity
  8
include
 62
7
100
AcDbSpline
 70
8
 71
3
 72
8
 73
4
 74
0
 40
0
 40
0
 40
0
 40
0
 40
1
 40
1
 40
1
 40
1
 10
137.964359
 20
208.964600
 30
0.0
 10
137.026659
 20
209.902301
 30
0.0
 10
136.499873
 20
211.174101
 30
0.0
 10
136.499893
 20
212.500209
 30
0.0
  0
LINE
  5
119
100
AcDbEntity
  8
include
 62
7
100
AcDbLine
 10
136.499893
 20
212.500209
 30
0.0
 11
13.500077
 21
212.500209
 31
0.0
  0
LINE
  5
11a
100
AcDbEntity
  8
include
 62
7
100
AcDbLine
 10
13.500077
 20
212.500209
 30
0.0
 11
13.500077
 21
212.500209
 31
0.0
  0
LINE
  5
11b
100
AcDbEntity
  8
Cutout
 62
7
100
AcDbLine
 10
6.000005
 20
111.750048
 30
0.0
 11
8.500006
 21
111.750048
 31
0.0
  0
LINE
  5
11c
100
AcDbEntity
  8
Cutout
 62
7
100
AcDbLine
 10
8.500006
 20
111.750048
 30
0.0
 11
8.500006
 21
109.250047
 31
0.0
  0
LINE
  5
11d
100
AcDbEntity
  8
Cutout
 62
7
100
AcDbLine
 10
8.500006
 20
109.250047
 30
0.0
 11
6.000005
 21
109.250047
 31
0.0
  0
LINE
  5
11e
100
AcDbEntity
  8
Cutout
 62
7
100
AcDbLine
 10
6.000005
 20
109.250047
 30
0.0
 11
6.000005
 21
111.750048
 31
0.0
  0
LINE
  5
11f
100
AcDbEntity
  8
Cutout
 62
7
100
AcDbLine
 10
141.499968
 20
111.750048
 30
0.0
 11
143.999969
 21
111.750048
 31
0.0
  0
LINE
  5
120
100
AcDbEntity
  8
Cutout
 62
7
100
AcDbLine
 10
143.999969
 20
111.750048
 30
0.0
 11
143.999969
 21
109.250047
 31
0.0
  0
LINE
  5
121
100
AcDbEntity
  8
Cutout
 62
7
100
AcDbLine
 10
143.999969
 20
109.250047
 30
0.0
 11
141.499968
 21
109.250047
 31
0.0
  0
LINE
  5
122
100
AcDbEntity
  8
Cutout
 62
7
100
AcDbLine
 10
141.499968
 20
109.250047
 30
0.0
 11
141.499968
 21
111.750048
 31
0.0
  0
LINE
  5
123
100
AcDbEntity
  8
Cutout
 62
7
100
AcDbLine
 10
82.500002
 20
192.908193
 30
0.0
 11
67.500000
 21
192.908193
 31
0.0
  0
SPLINE
  5
124
100
AcDbEntity
  8
Cutout
 62
7
100
AcDbSpline
 70
8
 71
3
 72
8
 73
4
 74
0
 40
0
 40
0
 40
0
 40
0
 40
1
 40
1
 40
1
 40
1
 10
67.500000
 20
192.908193
 30
0.0
 10
66.392002
 20
192.908193
 30
0.0
 10
65.500002
 20
192.016201
 30
0.0
 10
65.500002
 20
190.908197
 30
0.0
  0
LINE
  5
125
100
AcDbEntity
  8
Cutout
 62
7
100
AcDbLine
 10
65.500002
 20
190.908197
 30
0.0
 11
65.500002
 21
175.908198
 31
0.0
  0
SPLINE
  5
126
100
AcDbEntity
  8
Cutout
 62
7
100
AcDbSpline
 70
8
 71
3
 72
8
 73
4
 74
0
 40
0
 40
0
 40
0
 40
0
 40
1
 40
1
 40
1
 40
1
 10
65.500002
 20
175.908198
 30
0.0
 10
65.500002
 20
174.800194
 30
0.0
 10
66.392002
 20
173.908202
 30
0.0
 10
67.500000
 20
173.908202
 30
0.0
  0
LINE
  5
127
100
AcDbEntity
  8
Cutout
 62
7
100
AcDbLine
 10
67.500000
 20
173.908202
 30
0.0
 11
82.500002
 21
173.908202
 31
0.0
  0
SPLINE
  5
128
100
AcDbEntity
  8
Cutout
 62
7
100
AcDbSpline
 70
8
 71
3
 72
8
 73
4
 74
0
 40
0
 40
0
 40
0
 40
0
 40
1
 40
1
 40
1
 40
1
 10
82.500002
 20
173.908202
 30
0.0
 10
83.608003
 20
173.908202
 30
0.0
 10
84.500003
 20
174.800194
 30
0.0
 10
84.500003
 20
175.908198
 30
0.0
  0
LINE
  5
129
100
AcDbEntity
  8
Cutout
 62
7
100
AcDbLine
 10
84.500003
 20
175.908198
 30
0.0
 11
84.500003
 21
190.908197
 31
0.0
  0
SPLINE
  5
12a
100
AcDbEntity
  8
Cutout
 62
7
100
AcDbSpline
 70
8
 71
3
 72
8
 73
4
 74
0
 40
0
 40
0
 40
0
 40
0
 40
1
 40
1
 40
1
 40
1
 10
84.500003
 20
190.908197
 30
0.0
 10
84.500003
 20
192.016201
 30
0.0
 10
83.608003
 20
192.908193
 30
0.0
 10
82.500002
 20
192.908193
 30
0.0
  0
LINE
  5
12b
100
AcDbEntity
  8
Cutout
 62
7
100
AcDbLine
 10
82.500002
 20
192.908193
 30
0.0
 11
82.500002
 21
192.908193
 31
0.0
  0
SPLINE
  5
12c
100
AcDbEntity
  8
Cutout
 62
7
100
AcDbSpline
 70
8
 71
3
 72
8
 73
4
 74
0
 40
0
 40
0
 40
0
 40
0
 40
1
 40
1
 40
1
 40
1
 10
75.000279
 20
191.408238
 30
0.0
 10
77.911585
 20
191.407212
 30
0.0
 10
80.592509
 20
189.824711
 30
0.0
 10
82.000161
 20
187.276335
 30
0.0
  0
LINE
  5
12d
100
AcDbEntity
  8
Cutout
 62
7
100
AcDbLine
 10
82.000161
 20
187.276335
 30
0.0
 11
82.000161
 21
179.553804
 31
0.0
  0
SPLINE
  5
12e
100
AcDbEntity
  8
Cutout
 62
7
100
AcDbSpline
 70
8
 71
3
 72
8
 73
4
 74
0
 40
0
 40
0
 40
0
 40
0
 40
1
 40
1
 40
1
 40
1
 10
82.000161
 20
179.553804
 30
0.0
 10
80.596126
 20
177.000099
 30
0.0
 10
77.914504
 20
175.411900
 30
0.0
 10
75.000279
 20
175.408101
 30
0.0
  0
SPLINE
  5
12f
100
AcDbEntity
  8
Cutout
 62
7
100
AcDbSpline
 70
8
 71
3
 72
8
 73
4
 74
0
 40
0
 40
0
 40
0
 40
0
 40
1
 40
1
 40
1
 40
1
 10
75.000279
 20
175.408101
 30
0.0
 10
72.088888
 20
175.408818
 30
0.0
 10
69.407732
 20
176.991125
 30
0.0
 10
67.999844
 20
179.539467
 30
0.0
  0
LINE
  5
130
100
AcDbEntity
  8
Cutout
 62
7
100
AcDbLine
 10
67.999844
 20
179.539467
 30
0.0
 11
67.999844
 21
187.262535
 31
0.0
  0
SPLINE
  5
131
100
AcDbEntity
  8
Cutout
 62
7
100
AcDbSpline
 70
8
 71
3
 72
8
 73
4
 74
0
 40
0
 40
0
 40
0
 40
0
 40
1
 40
1
 40
1
 40
1
 10
67.999844
 20
187.262535
 30
0.0
 10
69.403974
 20
189.816413
 30
0.0
 10
72.085856
 20
191.404640
 30
0.0
 10
75.000279
 20
191.408238
 30
0.0
  0
LINE
  5
132
100
AcDbEntity
  8
Cutout
 62
7
100
AcDbLine
 10
75.000279
 20
191.408238
 30
0.0
 11
75.000279
 21
191.408238
 31
0.0
  0
SPLINE
  5
133
100
AcDbEntity
  8
Cutout
 62
7
100
AcDbSpline
 70
8
 71
3
 72
8
 73
4
 74
0
 40
0
 40
0
 40
0
 40
0
 40
1
 40
1
 40
1
 40
1
 10
138.571331
 20
157.245379
 30
0.0
 10
136.695959
 20
155.369951
 30
0.0
 10
134.152374
 20
154.316341
 30
0.0
 10
131.500158
 20
154.316341
 30
0.0
  0
SPLINE
  5
134
100
AcDbEntity
  8
Cutout
 62
7
100
AcDbSpline
 70
8
 71
3
 72
8
 73
4
 74
0
 40
0
 40
0
 40
0
 40
0
 40
1
 40
1
 40
1
 40
1
 10
131.500158
 20
154.316341
 30
0.0
 10
128.847941
 20
154.316341
 30
0.0
 10
126.304356
 20
155.369951
 30
0.0
 10
124.428984
 20
157.245379
 30
0.0
  0
SPLINE
  5
135
100
AcDbEntity
  8
Cutout
 62
7
100
AcDbSpline
 70
8
 71
3
 72
8
 73
4
 74
0
 40
0
 40
0
 40
0
 40
0
 40
1
 40
1
 40
1
 40
1
 10
124.428984
 20
157.245379
 30
0.0
 10
124.428984
 20
157.245379
 30
0.0
 10
123.062848
 20
158.611504
 30
0.0
 10
123.062848
 20
158.611504
 30
0.0
  0
SPLINE
  5
136
100
AcDbEntity
  8
Cutout
 62
7
100
AcDbSpline
 70
8
 71
3
 72
8
 73
4
 74
0
 40
0
 40
0
 40
0
 40
0
 40
1
 40
1
 40
1
 40
1
 10
123.062848
 20
158.611504
 30
0.0
 10
112.913854
 20
154.248722
 30
0.0
 10
101.130911
 20
156.508551
 30
0.0
 10
93.316131
 20
164.316570
 30
0.0
  0
SPLINE
  5
137
100
AcDbEntity
  8
Cutout
 62
7
100
AcDbSpline
 70
8
 71
3
 72
8
 73
4
 74
0
 40
0
 40
0
 40
0
 40
0
 40
1
 40
1
 40
1
 40
1
 10
93.316131
 20
164.316570
 30
0.0
 10
85.514462
 20
172.131715
 30
0.0
 10
83.258162
 20
183.909981
 30
0.0
 10
87.619281
 20
194.055087
 30
0.0
  0
SPLINE
  5
138
100
AcDbEntity
  8
Cutout
 62
7
100
AcDbSpline
 70
8
 71
3
 72
8
 73
4
 74
0
 40
0
 40
0
 40
0
 40
0
 40
1
 40
1
 40
1
 40
1
 10
87.619281
 20
194.055087
 30
0.0
 10
87.619281
 20
194.055087
 30
0.0
 10
86.244958
 20
195.429397
 30
0.0
 10
86.244958
 20
195.429397
 30
0.0
  0
SPLINE
  5
139
100
AcDbEntity
  8
Cutout
 62
7
100
AcDbSpline
 70
8
 71
3
 72
8
 73
4
 74
0
 40
0
 40
0
 40
0
 40
0
 40
1
 40
1
 40
1
 40
1
 10
86.244958
 20
195.429397
 30
0.0
 10
82.339911
 20
199.334697
 30
0.0
 10
82.340038
 20
205.666210
 30
0.0
 10
86.245240
 20
209.571355
 30
0.0
  0
SPLINE
  5
13a
100
AcDbEntity
  8
Cutout
 62
7
100
AcDbSpline
 70
8
 71
3
 72
8
 73
4
 74
0
 40
0
 40
0
 40
0
 40
0
 40
1
 40
1
 40
1
 40
1
 10
86.245240
 20
209.571355
 30
0.0
 10
90.150417
 20
213.476216
 30
0.0
 10
96.481625
 20
213.476216
 30
0.0
 10
100.386803
 20
209.571355
 30
0.0
  0
SPLINE
  5
13b
100
AcDbEntity
  8
Cutout
 62
7
100
AcDbSpline
 70
8
 71
3
 72
8
 73
4
 74
0
 40
0
 40
0
 40
0
 40
0
 40
1
 40
1
 40
1
 40
1
 10
100.386803
 20
209.571355
 30
0.0
 10
100.386803
 20
209.571355
 30
0.0
 10
101.752939
 20
208.205230
 30
0.0
 10
101.752939
 20
208.205230
 30
0.0
  0
SPLINE
  5
13c
100
AcDbEntity
  8
Cutout
 62
7
100
AcDbSpline
 70
8
 71
3
 72
8
 73
4
 74
0
 40
0
 40
0
 40
0
 40
0
 40
1
 40
1
 40
1
 40
1
 10
101.752939
 20
208.205230
 30
0.0
 10
111.901954
 20
212.568294
 30
0.0
 10
123.685093
 20
210.308625
 30
0.0
 10
131.500039
 20
202.500587
 30
0.0
  0
SPLINE
  5
13d
100
AcDbEntity
  8
Cutout
 62
7
100
AcDbSpline
 70
8
 71
3
 72
8
 73
4
 74
0
 40
0
 40
0
 40
0
 40
0
 40
1
 40
1
 40
1
 40
1
 10
131.500039
 20
202.500587
 30
0.0
 10
139.301760
 20
194.685279
 30
0.0
 10
141.557920
 20
182.906793
 30
0.0
 10
137.196511
 20
172.761646
 30
0.0
  0
LINE
  5
13e
100
AcDbEntity
  8
Cutout
 62
7
100
AcDbLine
 10
137.196511
 20
172.761646
 30
0.0
 11
138.570829
 21
171.387337
 31
0.0
  0
SPLINE
  5
13f
100
AcDbEntity
  8
Cutout
 62
7
100
AcDbSpline
 70
8
 71
3
 72
8
 73
4
 74
0
 40
0
 40
0
 40
0
 40
0
 40
1
 40
1
 40
1
 40
1
 10
138.570829
 20
171.387337
 30
0.0
 10
142.476031
 20
167.482192
 30
0.0
 10
142.476158
 20
161.150680
 30
0.0
 10
138.571111
 20
157.245379
 30
0.0
  0
LINE
  5
140
100
AcDbEntity
  8
Cutout
 62
7
100
AcDbLine
 10
138.571111
 20
157.245379
 30
0.0
 11
138.571331
 21
157.245379
 31
0.0
  0
SPLINE
  5
141
100
AcDbEntity
  8
Cutout
 62
7
100
AcDbSpline
 70
8
 71
3
 72
8
 73
4
 74
0
 40
0
 40
0
 40
0
 40
0
 40
1
 40
1
 40
1
 40
1
 10
94.907451
 20
165.907477
 30
0.0
 10
104.572923
 20
156.242004
 30
0.0
 10
120.243750
 20
156.241998
 30
0.0
 10
129.909229
 20
165.907465
 30
0.0
  0
SPLINE
  5
142
100
AcDbEntity
  8
Cutout
 62
7
100
AcDbSpline
 70
8
 71
3
 72
8
 73
4
 74
0
 40
0
 40
0
 40
0
 40
0
 40
1
 40
1
 40
1
 40
1
 10
129.909229
 20
165.907465
 30
0.0
 10
134.550758
 20
170.548990
 30
0.0
 10
137.158344
 20
176.844251
 30
0.0
 10
137.158345
 20
183.408362
 30
0.0
  0
SPLINE
  5
143
100
AcDbEntity
  8
Cutout
 62
7
100
AcDbSpline
 70
8
 71
3
 72
8
 73
4
 74
0
 40
0
 40
0
 40
0
 40
0
 40
1
 40
1
 40
1
 40
1
 10
137.158345
 20
183.408362
 30
0.0
 10
137.158347
 20
189.972473
 30
0.0
 10
134.550764
 20
196.267736
 30
0.0
 10
129.909237
 20
200.909263
 30
0.0
  0
SPLINE
  5
144
100
AcDbEntity
  8
Cutout
 62
7
100
AcDbSpline
 70
8
 71
3
 72
8
 73
4
 74
0
 40
0
 40
0
 40
0
 40
0
 40
1
 40
1
 40
1
 40
1
 10
129.909237
 20
200.909263
 30
0.0
 10
125.267709
 20
205.550789
 30
0.0
 10
118.972447
 20
208.158371
 30
0.0
 10
112.408337
 20
208.158369
 30
0.0
  0
SPLINE
  5
145
100
AcDbEntity
  8
Cutout
 62
7
100
AcDbSpline
 70
8
 71
3
 72
8
 73
4
 74
0
 40
0
 40
0
 40
0
 40
0
 40
1
 40
1
 40
1
 40
1
 10
112.408337
 20
208.158369
 30
0.0
 10
105.844226
 20
208.158367
 30
0.0
 10
99.548966
 20
205.550782
 30
0.0
 10
94.907441
 20
200.909253
 30
0.0
  0
SPLINE
  5
146
100
AcDbEntity
  8
Cutout
 62
7
100
AcDbSpline
 70
8
 71
3
 72
8
 73
4
 74
0
 40
0
 40
0
 40
0
 40
0
 40
1
 40
1
 40
1
 40
1
 10
94.907441
 20
200.909253
 30
0.0
 10
85.241975
 20
191.243775
 30
0.0
 10
85.241979
 20
175.572950
 30
0.0
 10
94.907451
 20
165.907477
 30
0.0
  0
LINE
  5
147
100
AcDbEntity
  8
Cutout
 62
7
100
AcDbLine
 10
94.907451
 20
165.907477
 30
0.0
 11
94.907451
 21
165.907477
 31
0.0
  0
SPLINE
  5
148
100
AcDbEntity
  8
Cutout
 62
7
100
AcDbSpline
 70
8
 71
3
 72
8
 73
4
 74
0
 40
0
 40
0
 40
0
 40
0
 40
1
 40
1
 40
1
 40
1
 10
89.957722
 20
203.384133
 30
0.0
 10
90.641132
 20
202.700722
 30
0.0
 10
91.749158
 20
202.700714
 30
0.0
 10
92.432578
 20
203.384115
 30
0.0
  0
SPLINE
  5
149
100
AcDbEntity
  8
Cutout
 62
7
100
AcDbSpline
 70
8
 71
3
 72
8
 73
4
 74
0
 40
0
 40
0
 40
0
 40
0
 40
1
 40
1
 40
1
 40
1
 10
92.432578
 20
203.384115
 30
0.0
 10
92.760768
 20
203.712304
 30
0.0
 10
92.945144
 20
204.157424
 30
0.0
 10
92.945144
 20
204.621553
 30
0.0
  0
SPLINE
  5
14a
100
AcDbEntity
  8
Cutout
 62
7
100
AcDbSpline
 70
8
 71
3
 72
8
 73
4
 74
0
 40
0
 40
0
 40
0
 40
0
 40
1
 40
1
 40
1
 40
1
 10
92.945144
 20
204.621553
 30
0.0
 10
92.945144
 20
205.085683
 30
0.0
 10
92.760770
 20
205.530803
 30
0.0
 10
92.432580
 20
205.858992
 30
0.0
  0
SPLINE
  5
14b
100
AcDbEntity
  8
Cutout
 62
7
100
AcDbSpline
 70
8
 71
3
 72
8
 73
4
 74
0
 40
0
 40
0
 40
0
 40
0
 40
1
 40
1
 40
1
 40
1
 10
92.432580
 20
205.858992
 30
0.0
 10
92.104391
 20
206.187182
 30
0.0
 10
91.659271
 20
206.371556
 30
0.0
 10
91.195142
 20
206.371556
 30
0.0
  0
SPLINE
  5
14c
100
AcDbEntity
  8
Cutout
 62
7
100
AcDbSpline
 70
8
 71
3
 72
8
 73
4
 74
0
 40
0
 40
0
 40
0
 40
0
 40
1
 40
1
 40
1
 40
1
 10
91.195142
 20
206.371556
 30
0.0
 10
90.731012
 20
206.371555
 30
0.0
 10
90.285892
 20
206.187180
 30
0.0
 10
89.957704
 20
205.858990
 30
0.0
  0
SPLINE
  5
14d
100
AcDbEntity
  8
Cutout
 62
7
100
AcDbSpline
 70
8
 71
3
 72
8
 73
4
 74
0
 40
0
 40
0
 40
0
 40
0
 40
1
 40
1
 40
1
 40
1
 10
89.957704
 20
205.858990
 30
0.0
 10
89.274302
 20
205.175570
 30
0.0
 10
89.274310
 20
204.067544
 30
0.0
 10
89.957722
 20
203.384133
 30
0.0
  0
LINE
  5
14e
100
AcDbEntity
  8
Cutout
 62
7
100
AcDbLine
 10
89.957722
 20
203.384133
 30
0.0
 11
89.957722
 21
203.384133
 31
0.0
  0
SPLINE
  5
14f
100
AcDbEntity
  8
Cutout
 62
7
100
AcDbSpline
 70
8
 71
3
 72
8
 73
4
 74
0
 40
0
 40
0
 40
0
 40
0
 40
1
 40
1
 40
1
 40
1
 10
132.384121
 20
160.957734
 30
0.0
 10
133.067532
 20
160.274322
 30
0.0
 10
134.175558
 20
160.274314
 30
0.0
 10
134.858978
 20
160.957716
 30
0.0
  0
SPLINE
  5
150
100
AcDbEntity
  8
Cutout
 62
7
100
AcDbSpline
 70
8
 71
3
 72
8
 73
4
 74
0
 40
0
 40
0
 40
0
 40
0
 40
1
 40
1
 40
1
 40
1
 10
134.858978
 20
160.957716
 30
0.0
 10
135.187168
 20
161.285904
 30
0.0
 10
135.371543
 20
161.731024
 30
0.0
 10
135.371544
 20
162.195154
 30
0.0
  0
SPLINE
  5
151
100
AcDbEntity
  8
Cutout
 62
7
100
AcDbSpline
 70
8
 71
3
 72
8
 73
4
 74
0
 40
0
 40
0
 40
0
 40
0
 40
1
 40
1
 40
1
 40
1
 10
135.371544
 20
162.195154
 30
0.0
 10
135.371544
 20
162.659283
 30
0.0
 10
135.187169
 20
163.104403
 30
0.0
 10
134.858980
 20
163.432592
 30
0.0
  0
SPLINE
  5
152
100
AcDbEntity
  8
Cutout
 62
7
100
AcDbSpline
 70
8
 71
3
 72
8
 73
4
 74
0
 40
0
 40
0
 40
0
 40
0
 40
1
 40
1
 40
1
 40
1
 10
134.858980
 20
163.432592
 30
0.0
 10
134.530791
 20
163.760782
 30
0.0
 10
134.085671
 20
163.945156
 30
0.0
 10
133.621541
 20
163.945156
 30
0.0
  0
SPLINE
  5
153
100
AcDbEntity
  8
Cutout
 62
7
100
AcDbSpline
 70
8
 71
3
 72
8
 73
4
 74
0
 40
0
 40
0
 40
0
 40
0
 40
1
 40
1
 40
1
 40
1
 10
133.621541
 20
163.945156
 30
0.0
 10
133.157412
 20
163.945156
 30
0.0
 10
132.712292
 20
163.760780
 30
0.0
 10
132.384103
 20
163.432590
 30
0.0
  0
SPLINE
  5
154
100
AcDbEntity
  8
Cutout
 62
7
100
AcDbSpline
 70
8
 71
3
 72
8
 73
4
 74
0
 40
0
 40
0
 40
0
 40
0
 40
1
 40
1
 40
1
 40
1
 10
132.384103
 20
163.432590
 30
0.0
 10
131.700702
 20
162.749170
 30
0.0
 10
131.700710
 20
161.641144
 30
0.0
 10
132.384121
 20
160.957734
 30
0.0
  0
LINE
  5
155
100
AcDbEntity
  8
Cutout
 62
7
100
AcDbLine
 10
132.384121
 20
160.957734
 30
0.0
 11
132.384121
 21
160.957734
 31
0.0
  0
SPLINE
  5
156
100
AcDbEntity
  8
Cutout
 62
7
100
AcDbSpline
 70
8
 71
3
 72
8
 73
4
 74
0
 40
0
 40
0
 40
0
 40
0
 40
1
 40
1
 40
1
 40
1
 10
11.428657
 20
165.333078
 30
0.0
 10
13.304029
 20
167.208506
 30
0.0
 10
15.847614
 20
168.262116
 30
0.0
 10
18.499830
 20
168.262116
 30
0.0
  0
SPLINE
  5
157
100
AcDbEntity
  8
Cutout
 62
7
100
AcDbSpline
 70
8
 71
3
 72
8
 73
4
 74
0
 40
0
 40
0
 40
0
 40
0
 40
1
 40
1
 40
1
 40
1
 10
18.499830
 20
168.262116
 30
0.0
 10
21.152047
 20
168.262116
 30
0.0
 10
23.695632
 20
167.208506
 30
0.0
 10
25.571004
 20
165.333078
 30
0.0
  0
LINE
  5
158
100
AcDbEntity
  8
Cutout
 62
7
100
AcDbLine
 10
25.571004
 20
165.333078
 30
0.0
 11
26.937140
 21
163.966953
 31
0.0
  0
SPLINE
  5
159
100
AcDbEntity
  8
Cutout
 62
7
100
AcDbSpline
 70
8
 71
3
 72
8
 73
4
 74
0
 40
0
 40
0
 40
0
 40
0
 40
1
 40
1
 40
1
 40
1
 10
26.937140
 20
163.966953
 30
0.0
 10
37.086129
 20
168.329742
 30
0.0
 10
48.869071
 20
166.069925
 30
0.0
 10
56.683856
 20
158.261915
 30
0.0
  0
SPLINE
  5
15a
100
AcDbEntity
  8
Cutout
 62
7
100
AcDbSpline
 70
8
 71
3
 72
8
 73
4
 74
0
 40
0
 40
0
 40
0
 40
0
 40
1
 40
1
 40
1
 40
1
 10
56.683856
 20
158.261915
 30
0.0
 10
64.485526
 20
150.446770
 30
0.0
 10
66.741826
 20
138.668504
 30
0.0
 10
62.380707
 20
128.523398
 30
0.0
  0
SPLINE
  5
15b
100
AcDbEntity
  8
Cutout
 62
7
100
AcDbSpline
 70
8
 71
3
 72
8
 73
4
 74
0
 40
0
 40
0
 40
0
 40
0
 40
1
 40
1
 40
1
 40
1
 10
62.380707
 20
128.523398
 30
0.0
 10
62.380707
 20
128.523398
 30
0.0
 10
63.755030
 20
127.149060
 30
0.0
 10
63.755030
 20
127.149060
 30
0.0
  0
SPLINE
  5
15c
100
AcDbEntity
  8
Cutout
 62
7
100
AcDbSpline
 70
8
 71
3
 72
8
 73
4
 74
0
 40
0
 40
0
 40
0
 40
0
 40
1
 40
1
 40
1
 40
1
 10
63.755030
 20
127.149060
 30
0.0
 10
67.660077
 20
123.243760
 30
0.0
 10
67.659950
 20
116.912247
 30
0.0
 10
63.754748
 20
113.007102
 30
0.0
  0
SPLINE
  5
15d
100
AcDbEntity
  8
Cutout
 62
7
100
AcDbSpline
 70
8
 71
3
 72
8
 73
4
 74
0
 40
0
 40
0
 40
0
 40
0
 40
1
 40
1
 40
1
 40
1
 10
63.754748
 20
113.007102
 30
0.0
 10
59.849570
 20
109.102241
 30
0.0
 10
53.518362
 20
109.102241
 30
0.0
 10
49.613185
 20
113.007102
 30
0.0
  0
SPLINE
  5
15e
100
AcDbEntity
  8
Cutout
 62
7
100
AcDbSpline
 70
8
 71
3
 72
8
 73
4
 74
0
 40
0
 40
0
 40
0
 40
0
 40
1
 40
1
 40
1
 40
1
 10
49.613185
 20
113.007102
 30
0.0
 10
49.613185
 20
113.007102
 30
0.0
 10
48.247049
 20
114.373255
 30
0.0
 10
48.247049
 20
114.373255
 30
0.0
  0
SPLINE
  5
15f
100
AcDbEntity
  8
Cutout
 62
7
100
AcDbSpline
 70
8
 71
3
 72
8
 73
4
 74
0
 40
0
 40
0
 40
0
 40
0
 40
1
 40
1
 40
1
 40
1
 10
48.247049
 20
114.373255
 30
0.0
 10
38.098034
 20
110.010191
 30
0.0
 10
26.314895
 20
112.269860
 30
0.0
 10
18.499949
 20
120.077898
 30
0.0
  0
SPLINE
  5
160
100
AcDbEntity
  8
Cutout
 62
7
100
AcDbSpline
 70
8
 71
3
 72
8
 73
4
 74
0
 40
0
 40
0
 40
0
 40
0
 40
1
 40
1
 40
1
 40
1
 10
18.499949
 20
120.077898
 30
0.0
 10
10.698240
 20
127.893201
 30
0.0
 10
8.442081
 20
139.671671
 30
0.0
 10
12.803477
 20
149.816810
 30
0.0
  0
SPLINE
  5
161
100
AcDbEntity
  8
Cutout
 62
7
100
AcDbSpline
 70
8
 71
3
 72
8
 73
4
 74
0
 40
0
 40
0
 40
0
 40
0
 40
1
 40
1
 40
1
 40
1
 10
12.803477
 20
149.816810
 30
0.0
 10
12.803477
 20
149.816810
 30
0.0
 10
11.429159
 20
151.191148
 30
0.0
 10
11.429159
 20
151.191148
 30
0.0
  0
SPLINE
  5
162
100
AcDbEntity
  8
Cutout
 62
7
100
AcDbSpline
 70
8
 71
3
 72
8
 73
4
 74
0
 40
0
 40
0
 40
0
 40
0
 40
1
 40
1
 40
1
 40
1
 10
11.429159
 20
151.191148
 30
0.0
 10
7.523975
 20
155.096289
 30
0.0
 10
7.523849
 20
161.427780
 30
0.0
 10
11.428877
 20
165.333078
 30
0.0
  0
LINE
  5
163
100
AcDbEntity
  8
Cutout
 62
7
100
AcDbLine
 10
11.428877
 20
165.333078
 30
0.0
 11
11.428657
 21
165.333078
 31
0.0
  0
SPLINE
  5
164
100
AcDbEntity
  8
Cutout
 62
7
100
AcDbSpline
 70
8
 71
3
 72
8
 73
4
 74
0
 40
0
 40
0
 40
0
 40
0
 40
1
 40
1
 40
1
 40
1
 10
55.092550
 20
156.671022
 30
0.0
 10
50.451023
 20
161.312550
 30
0.0
 10
44.155760
 20
163.920133
 30
0.0
 10
37.591649
 20
163.920131
 30
0.0
  0
SPLINE
  5
165
100
AcDbEntity
  8
Cutout
 62
7
100
AcDbSpline
 70
8
 71
3
 72
8
 73
4
 74
0
 40
0
 40
0
 40
0
 40
0
 40
1
 40
1
 40
1
 40
1
 10
37.591649
 20
163.920131
 30
0.0
 10
31.027538
 20
163.920130
 30
0.0
 10
24.732277
 20
161.312544
 30
0.0
 10
20.090752
 20
156.671014
 30
0.0
  0
SPLINE
  5
166
100
AcDbEntity
  8
Cutout
 62
7
100
AcDbSpline
 70
8
 71
3
 72
8
 73
4
 74
0
 40
0
 40
0
 40
0
 40
0
 40
1
 40
1
 40
1
 40
1
 10
20.090752
 20
156.671014
 30
0.0
 10
15.449227
 20
152.029489
 30
0.0
 10
12.841645
 20
145.734229
 30
0.0
 10
12.841646
 20
139.170120
 30
0.0
  0
SPLINE
  5
167
100
AcDbEntity
  8
Cutout
 62
7
100
AcDbSpline
 70
8
 71
3
 72
8
 73
4
 74
0
 40
0
 40
0
 40
0
 40
0
 40
1
 40
1
 40
1
 40
1
 10
12.841646
 20
139.170120
 30
0.0
 10
12.841646
 20
132.606012
 30
0.0
 10
15.449228
 20
126.310752
 30
0.0
 10
20.090754
 20
121.669227
 30
0.0
  0
SPLINE
  5
168
100
AcDbEntity
  8
Cutout
 62
7
100
AcDbSpline
 70
8
 71
3
 72
8
 73
4
 74
0
 40
0
 40
0
 40
0
 40
0
 40
1
 40
1
 40
1
 40
1
 10
20.090754
 20
121.669227
 30
0.0
 10
29.756231
 20
112.003751
 30
0.0
 10
45.427063
 20
112.003751
 30
0.0
 10
55.092540
 20
121.669227
 30
0.0
  0
SPLINE
  5
169
100
AcDbEntity
  8
Cutout
 62
7
100
AcDbSpline
 70
8
 71
3
 72
8
 73
4
 74
0
 40
0
 40
0
 40
0
 40
0
 40
1
 40
1
 40
1
 40
1
 10
55.092540
 20
121.669227
 30
0.0
 10
59.734069
 20
126.310751
 30
0.0
 10
62.341655
 20
132.606012
 30
0.0
 10
62.341656
 20
139.170123
 30
0.0
  0
SPLINE
  5
16a
100
AcDbEntity
  8
Cutout
 62
7
100
AcDbSpline
 70
8
 71
3
 72
8
 73
4
 74
0
 40
0
 40
0
 40
0
 40
0
 40
1
 40
1
 40
1
 40
1
 10
62.341656
 20
139.170123
 30
0.0
 10
62.341658
 20
145.734233
 30
0.0
 10
59.734076
 20
152.029495
 30
0.0
 10
55.092550
 20
156.671022
 30
0.0
  0
LINE
  5
16b
100
AcDbEntity
  8
Cutout
 62
7
100
AcDbLine
 10
55.092550
 20
156.671022
 30
0.0
 11
55.092550
 21
156.671022
 31
0.0
  0
SPLINE
  5
16c
100
AcDbEntity
  8
Cutout
 62
7
100
AcDbSpline
 70
8
 71
3
 72
8
 73
4
 74
0
 40
0
 40
0
 40
0
 40
0
 40
1
 40
1
 40
1
 40
1
 10
60.042285
 20
119.194360
 30
0.0
 10
59.714096
 20
119.522549
 30
0.0
 10
59.268976
 20
119.706924
 30
0.0
 10
58.804846
 20
119.706924
 30
0.0
  0
SPLINE
  5
16d
100
AcDbEntity
  8
Cutout
 62
7
100
AcDbSpline
 70
8
 71
3
 72
8
 73
4
 74
0
 40
0
 40
0
 40
0
 40
0
 40
1
 40
1
 40
1
 40
1
 10
58.804846
 20
119.706924
 30
0.0
 10
58.340717
 20
119.706923
 30
0.0
 10
57.895597
 20
119.522548
 30
0.0
 10
57.567409
 20
119.194358
 30
0.0
  0
SPLINE
  5
16e
100
AcDbEntity
  8
Cutout
 62
7
100
AcDbSpline
 70
8
 71
3
 72
8
 73
4
 74
0
 40
0
 40
0
 40
0
 40
0
 40
1
 40
1
 40
1
 40
1
 10
57.567409
 20
119.194358
 30
0.0
 10
57.239219
 20
118.866170
 30
0.0
 10
57.054843
 20
118.421050
 30
0.0
 10
57.054843
 20
117.956920
 30
0.0
  0
SPLINE
  5
16f
100
AcDbEntity
  8
Cutout
 62
7
100
AcDbSpline
 70
8
 71
3
 72
8
 73
4
 74
0
 40
0
 40
0
 40
0
 40
0
 40
1
 40
1
 40
1
 40
1
 10
57.054843
 20
117.956920
 30
0.0
 10
57.054843
 20
117.492791
 30
0.0
 10
57.239217
 20
117.047670
 30
0.0
 10
57.567407
 20
116.719481
 30
0.0
  0
SPLINE
  5
170
100
AcDbEntity
  8
Cutout
 62
7
100
AcDbSpline
 70
8
 71
3
 72
8
 73
4
 74
0
 40
0
 40
0
 40
0
 40
0
 40
1
 40
1
 40
1
 40
1
 10
57.567407
 20
116.719481
 30
0.0
 10
57.895596
 20
116.391292
 30
0.0
 10
58.340716
 20
116.206917
 30
0.0
 10
58.804845
 20
116.206918
 30
0.0
  0
SPLINE
  5
171
100
AcDbEntity
  8
Cutout
 62
7
100
AcDbSpline
 70
8
 71
3
 72
8
 73
4
 74
0
 40
0
 40
0
 40
0
 40
0
 40
1
 40
1
 40
1
 40
1
 10
58.804845
 20
116.206918
 30
0.0
 10
59.268975
 20
116.206918
 30
0.0
 10
59.714095
 20
116.391294
 30
0.0
 10
60.042283
 20
116.719483
 30
0.0
  0
SPLINE
  5
172
100
AcDbEntity
  8
Cutout
 62
7
100
AcDbSpline
 70
8
 71
3
 72
8
 73
4
 74
0
 40
0
 40
0
 40
0
 40
0
 40
1
 40
1
 40
1
 40
1
 10
60.042283
 20
116.719483
 30
0.0
 10
60.370473
 20
117.047672
 30
0.0
 10
60.554849
 20
117.492792
 30
0.0
 10
60.554849
 20
117.956921
 30
0.0
  0
SPLINE
  5
173
100
AcDbEntity
  8
Cutout
 62
7
100
AcDbSpline
 70
8
 71
3
 72
8
 73
4
 74
0
 40
0
 40
0
 40
0
 40
0
 40
1
 40
1
 40
1
 40
1
 10
60.554849
 20
117.956921
 30
0.0
 10
60.554849
 20
118.421051
 30
0.0
 10
60.370475
 20
118.866171
 30
0.0
 10
60.042285
 20
119.194360
 30
0.0
  0
LINE
  5
174
100
AcDbEntity
  8
Cutout
 62
7
100
AcDbLine
 10
60.042285
 20
119.194360
 30
0.0
 11
60.042285
 21
119.194360
 31
0.0
  0
SPLINE
  5
175
100
AcDbEntity
  8
Cutout
 62
7
100
AcDbSpline
 70
8
 71
3
 72
8
 73
4
 74
0
 40
0
 40
0
 40
0
 40
0
 40
1
 40
1
 40
1
 40
1
 10
17.615880
 20
161.620766
 30
0.0
 10
17.287690
 20
161.948955
 30
0.0
 10
16.842570
 20
162.133330
 30
0.0
 10
16.378441
 20
162.133330
 30
0.0
  0
SPLINE
  5
176
100
AcDbEntity
  8
Cutout
 62
7
100
AcDbSpline
 70
8
 71
3
 72
8
 73
4
 74
0
 40
0
 40
0
 40
0
 40
0
 40
1
 40
1
 40
1
 40
1
 10
16.378441
 20
162.133330
 30
0.0
 10
15.914311
 20
162.133329
 30
0.0
 10
15.469191
 20
161.948954
 30
0.0
 10
15.141003
 20
161.620764
 30
0.0
  0
SPLINE
  5
177
100
AcDbEntity
  8
Cutout
 62
7
100
AcDbSpline
 70
8
 71
3
 72
8
 73
4
 74
0
 40
0
 40
0
 40
0
 40
0
 40
1
 40
1
 40
1
 40
1
 10
15.141003
 20
161.620764
 30
0.0
 10
14.812813
 20
161.292575
 30
0.0
 10
14.628437
 20
160.847456
 30
0.0
 10
14.628437
 20
160.383326
 30
0.0
  0
SPLINE
  5
178
100
AcDbEntity
  8
Cutout
 62
7
100
AcDbSpline
 70
8
 71
3
 72
8
 73
4
 74
0
 40
0
 40
0
 40
0
 40
0
 40
1
 40
1
 40
1
 40
1
 10
14.628437
 20
160.383326
 30
0.0
 10
14.628437
 20
159.919196
 30
0.0
 10
14.812811
 20
159.474076
 30
0.0
 10
15.141001
 20
159.145887
 30
0.0
  0
SPLINE
  5
179
100
AcDbEntity
  8
Cutout
 62
7
100
AcDbSpline
 70
8
 71
3
 72
8
 73
4
 74
0
 40
0
 40
0
 40
0
 40
0
 40
1
 40
1
 40
1
 40
1
 10
15.141001
 20
159.145887
 30
0.0
 10
15.469190
 20
158.817698
 30
0.0
 10
15.914310
 20
158.633323
 30
0.0
 10
16.378440
 20
158.633324
 30
0.0
  0
SPLINE
  5
17a
100
AcDbEntity
  8
Cutout
 62
7
100
AcDbSpline
 70
8
 71
3
 72
8
 73
4
 74
0
 40
0
 40
0
 40
0
 40
0
 40
1
 40
1
 40
1
 40
1
 10
16.378440
 20
158.633324
 30
0.0
 10
16.842569
 20
158.633324
 30
0.0
 10
17.287689
 20
158.817699
 30
0.0
 10
17.615878
 20
159.145889
 30
0.0
  0
SPLINE
  5
17b
100
AcDbEntity
  8
Cutout
 62
7
100
AcDbSpline
 70
8
 71
3
 72
8
 73
4
 74
0
 40
0
 40
0
 40
0
 40
0
 40
1
 40
1
 40
1
 40
1
 10
17.615878
 20
159.145889
 30
0.0
 10
17.944067
 20
159.474078
 30
0.0
 10
18.128443
 20
159.919198
 30
0.0
 10
18.128443
 20
160.383327
 30
0.0
  0
SPLINE
  5
17c
100
AcDbEntity
  8
Cutout
 62
7
100
AcDbSpline
 70
8
 71
3
 72
8
 73
4
 74
0
 40
0
 40
0
 40
0
 40
0
 40
1
 40
1
 40
1
 40
1
 10
18.128443
 20
160.383327
 30
0.0
 10
18.128444
 20
160.847457
 30
0.0
 10
17.944069
 20
161.292577
 30
0.0
 10
17.615880
 20
161.620766
 30
0.0
  0
LINE
  5
17d
100
AcDbEntity
  8
Cutout
 62
7
100
AcDbLine
 10
17.615880
 20
161.620766
 30
0.0
 11
17.615880
 21
161.620766
 31
0.0
  0
LINE
  5
17e
100
AcDbEntity
  8
Cutout
 62
7
100
AcDbLine
 10
82.500002
 20
148.670311
 30
0.0
 11
67.500000
 21
148.670311
 31
0.0
  0
SPLINE
  5
17f
100
AcDbEntity
  8
Cutout
 62
7
100
AcDbSpline
 70
8
 71
3
 72
8
 73
4
 74
0
 40
0
 40
0
 40
0
 40
0
 40
1
 40
1
 40
1
 40
1
 10
67.500000
 20
148.670311
 30
0.0
 10
66.392002
 20
148.670311
 30
0.0
 10
65.500002
 20
147.778319
 30
0.0
 10
65.500002
 20
146.670315
 30
0.0
  0
LINE
  5
180
100
AcDbEntity
  8
Cutout
 62
7
100
AcDbLine
 10
65.500002
 20
146.670315
 30
0.0
 11
65.500002
 21
131.670317
 31
0.0
  0
SPLINE
  5
181
100
AcDbEntity
  8
Cutout
 62
7
100
AcDbSpline
 70
8
 71
3
 72
8
 73
4
 74
0
 40
0
 40
0
 40
0
 40
0
 40
1
 40
1
 40
1
 40
1
 10
65.500002
 20
131.670317
 30
0.0
 10
65.500002
 20
130.562312
 30
0.0
 10
66.392002
 20
129.670321
 30
0.0
 10
67.500000
 20
129.670321
 30
0.0
  0
LINE
  5
182
100
AcDbEntity
  8
Cutout
 62
7
100
AcDbLine
 10
67.500000
 20
129.670321
 30
0.0
 11
82.500002
 21
129.670321
 31
0.0
  0
SPLINE
  5
183
100
AcDbEntity
  8
Cutout
 62
7
100
AcDbSpline
 70
8
 71
3
 72
8
 73
4
 74
0
 40
0
 40
0
 40
0
 40
0
 40
1
 40
1
 40
1
 40
1
 10
82.500002
 20
129.670321
 30
0.0
 10
83.608003
 20
129.670321
 30
0.0
 10
84.500003
 20
130.562312
 30
0.0
 10
84.500003
 20
131.670317
 30
0.0
  0
LINE
  5
184
100
AcDbEntity
  8
Cutout
 62
7
100
AcDbLine
 10
84.500003
 20
131.670317
 30
0.0
 11
84.500003
 21
146.670315
 31
0.0
  0
SPLINE
  5
185
100
AcDbEntity
  8
Cutout
 62
7
100
AcDbSpline
 70
8
 71
3
 72
8
 73
4
 74
0
 40
0
 40
0
 40
0
 40
0
 40
1
 40
1
 40
1
 40
1
 10
84.500003
 20
146.670315
 30
0.0
 10
84.500003
 20
147.778319
 30
0.0
 10
83.608003
 20
148.670311
 30
0.0
 10
82.500002
 20
148.670311
 30
0.0
  0
LINE
  5
186
100
AcDbEntity
  8
Cutout
 62
7
100
AcDbLine
 10
82.500002
 20
148.670311
 30
0.0
 11
82.500002
 21
148.670311
 31
0.0
  0
SPLINE
  5
187
100
AcDbEntity
  8
Cutout
 62
7
100
AcDbSpline
 70
8
 71
3
 72
8
 73
4
 74
0
 40
0
 40
0
 40
0
 40
0
 40
1
 40
1
 40
1
 40
1
 10
75.000279
 20
147.170356
 30
0.0
 10
77.911585
 20
147.169330
 30
0.0
 10
80.592509
 20
145.586829
 30
0.0
 10
82.000161
 20
143.038454
 30
0.0
  0
LINE
  5
188
100
AcDbEntity
  8
Cutout
 62
7
100
AcDbLine
 10
82.000161
 20
143.038454
 30
0.0
 11
82.000161
 21
135.315922
 31
0.0
  0
SPLINE
  5
189
100
AcDbEntity
  8
Cutout
 62
7
100
AcDbSpline
 70
8
 71
3
 72
8
 73
4
 74
0
 40
0
 40
0
 40
0
 40
0
 40
1
 40
1
 40
1
 40
1
 10
82.000161
 20
135.315922
 30
0.0
 10
80.596126
 20
132.762218
 30
0.0
 10
77.914504
 20
131.174018
 30
0.0
 10
75.000279
 20
131.170219
 30
0.0
  0
SPLINE
  5
18a
100
AcDbEntity
  8
Cutout
 62
7
100
AcDbSpline
 70
8
 71
3
 72
8
 73
4
 74
0
 40
0
 40
0
 40
0
 40
0
 40
1
 40
1
 40
1
 40
1
 10
75.000279
 20
131.170219
 30
0.0
 10
72.088888
 20
131.170936
 30
0.0
 10
69.407732
 20
132.753243
 30
0.0
 10
67.999844
 20
135.301585
 30
0.0
  0
LINE
  5
18b
100
AcDbEntity
  8
Cutout
 62
7
100
AcDbLine
 10
67.999844
 20
135.301585
 30
0.0
 11
67.999844
 21
143.024653
 31
0.0
  0
SPLINE
  5
18c
100
AcDbEntity
  8
Cutout
 62
7
100
AcDbSpline
 70
8
 71
3
 72
8
 73
4
 74
0
 40
0
 40
0
 40
0
 40
0
 40
1
 40
1
 40
1
 40
1
 10
67.999844
 20
143.024653
 30
0.0
 10
69.403974
 20
145.578531
 30
0.0
 10
72.085856
 20
147.166759
 30
0.0
 10
75.000279
 20
147.170356
 30
0.0
  0
LINE
  5
18d
100
AcDbEntity
  8
Cutout
 62
7
100
AcDbLine
 10
75.000279
 20
147.170356
 30
0.0
 11
75.000279
 21
147.170356
 31
0.0
  0
LINE
  5
18e
100
AcDbEntity
  8
Cutout
 62
7
100
AcDbLine
 10
82.500002
 20
104.432423
 30
0.0
 11
67.500000
 21
104.432423
 31
0.0
  0
SPLINE
  5
18f
100
AcDbEntity
  8
Cutout
 62
7
100
AcDbSpline
 70
8
 71
3
 72
8
 73
4
 74
0
 40
0
 40
0
 40
0
 40
0
 40
1
 40
1
 40
1
 40
1
 10
67.500000
 20
104.432423
 30
0.0
 10
66.392002
 20
104.432423
 30
0.0
 10
65.500002
 20
103.540423
 30
0.0
 10
65.500002
 20
102.432425
 30
0.0
  0
LINE
  5
190
100
AcDbEntity
  8
Cutout
 62
7
100
AcDbLine
 10
65.500002
 20
102.432425
 30
0.0
 11
65.500002
 21
87.432424
 31
0.0
  0
SPLINE
  5
191
100
AcDbEntity
  8
Cutout
 62
7
100
AcDbSpline
 70
8
 71
3
 72
8
 73
4
 74
0
 40
0
 40
0
 40
0
 40
0
 40
1
 40
1
 40
1
 40
1
 10
65.500002
 20
87.432424
 30
0.0
 10
65.500002
 20
86.324422
 30
0.0
 10
66.392002
 20
85.432422
 30
0.0
 10
67.500000
 20
85.432422
 30
0.0
  0
LINE
  5
192
100
AcDbEntity
  8
Cutout
 62
7
100
AcDbLine
 10
67.500000
 20
85.432422
 30
0.0
 11
82.500002
 21
85.432422
 31
0.0
  0
SPLINE
  5
193
100
AcDbEntity
  8
Cutout
 62
7
100
AcDbSpline
 70
8
 71
3
 72
8
 73
4
 74
0
 40
0
 40
0
 40
0
 40
0
 40
1
 40
1
 40
1
 40
1
 10
82.500002
 20
85.432422
 30
0.0
 10
83.608003
 20
85.432422
 30
0.0
 10
84.500003
 20
86.324422
 30
0.0
 10
84.500003
 20
87.432424
 30
0.0
  0
LINE
  5
194
100
AcDbEntity
  8
Cutout
 62
7
100
AcDbLine
 10
84.500003
 20
87.432424
 30
0.0
 11
84.500003
 21
102.432425
 31
0.0
  0
SPLINE
  5
195
100
AcDbEntity
  8
Cutout
 62
7
100
AcDbSpline
 70
8
 71
3
 72
8
 73
4
 74
0
 40
0
 40
0
 40
0
 40
0
 40
1
 40
1
 40
1
 40
1
 10
84.500003
 20
102.432425
 30
0.0
 10
84.500003
 20
103.540423
 30
0.0
 10
83.608003
 20
104.432423
 30
0.0
 10
82.500002
 20
104.432423
 30
0.0
  0
LINE
  5
196
100
AcDbEntity
  8
Cutout
 62
7
100
AcDbLine
 10
82.500002
 20
104.432423
 30
0.0
 11
82.500002
 21
104.432423
 31
0.0
  0
SPLINE
  5
197
100
AcDbEntity
  8
Cutout
 62
7
100
AcDbSpline
 70
8
 71
3
 72
8
 73
4
 74
0
 40
0
 40
0
 40
0
 40
0
 40
1
 40
1
 40
1
 40
1
 10
75.000279
 20
102.932477
 30
0.0
 10
77.911586
 20
102.931449
 30
0.0
 10
80.592511
 20
101.348945
 30
0.0
 10
82.000161
 20
98.800566
 30
0.0
  0
LINE
  5
198
100
AcDbEntity
  8
Cutout
 62
7
100
AcDbLine
 10
82.000161
 20
98.800566
 30
0.0
 11
82.000161
 21
91.078040
 31
0.0
  0
SPLINE
  5
199
100
AcDbEntity
  8
Cutout
 62
7
100
AcDbSpline
 70
8
 71
3
 72
8
 73
4
 74
0
 40
0
 40
0
 40
0
 40
0
 40
1
 40
1
 40
1
 40
1
 10
82.000161
 20
91.078040
 30
0.0
 10
80.596122
 20
88.524341
 30
0.0
 10
77.914501
 20
86.936147
 30
0.0
 10
75.000279
 20
86.932351
 30
0.0
  0
SPLINE
  5
19a
100
AcDbEntity
  8
Cutout
 62
7
100
AcDbSpline
 70
8
 71
3
 72
8
 73
4
 74
0
 40
0
 40
0
 40
0
 40
0
 40
1
 40
1
 40
1
 40
1
 10
75.000279
 20
86.932351
 30
0.0
 10
72.088890
 20
86.933067
 30
0.0
 10
69.407734
 20
88.515370
 30
0.0
 10
67.999844
 20
91.063709
 30
0.0
  0
SPLINE
  5
19b
100
AcDbEntity
  8
Cutout
 62
7
100
AcDbSpline
 70
8
 71
3
 72
8
 73
4
 74
0
 40
0
 40
0
 40
0
 40
0
 40
1
 40
1
 40
1
 40
1
 10
67.999844
 20
91.063709
 30
0.0
 10
67.999844
 20
91.063709
 30
0.0
 10
67.999844
 20
98.786785
 30
0.0
 10
67.999844
 20
98.786785
 30
0.0
  0
SPLINE
  5
19c
100
AcDbEntity
  8
Cutout
 62
7
100
AcDbSpline
 70
8
 71
3
 72
8
 73
4
 74
0
 40
0
 40
0
 40
0
 40
0
 40
1
 40
1
 40
1
 40
1
 10
67.999844
 20
98.786785
 30
0.0
 10
69.403977
 20
101.340659
 30
0.0
 10
72.085858
 20
102.928882
 30
0.0
 10
75.000279
 20
102.932477
 30
0.0
  0
LINE
  5
19d
100
AcDbEntity
  8
Cutout
 62
7
100
AcDbLine
 10
75.000279
 20
102.932477
 30
0.0
 11
75.000279
 21
102.932477
 31
0.0
  0
SPLINE
  5
19e
100
AcDbEntity
  8
Cutout
 62
7
100
AcDbSpline
 70
8
 71
3
 72
8
 73
4
 74
0
 40
0
 40
0
 40
0
 40
0
 40
1
 40
1
 40
1
 40
1
 10
138.571331
 20
68.769616
 30
0.0
 10
136.695959
 20
66.894187
 30
0.0
 10
134.152374
 20
65.840577
 30
0.0
 10
131.500158
 20
65.840577
 30
0.0
  0
SPLINE
  5
19f
100
AcDbEntity
  8
Cutout
 62
7
100
AcDbSpline
 70
8
 71
3
 72
8
 73
4
 74
0
 40
0
 40
0
 40
0
 40
0
 40
1
 40
1
 40
1
 40
1
 10
131.500158
 20
65.840577
 30
0.0
 10
128.847941
 20
65.840577
 30
0.0
 10
126.304356
 20
66.894187
 30
0.0
 10
124.428984
 20
68.769616
 30
0.0
  0
LINE
  5
1a0
100
AcDbEntity
  8
Cutout
 62
7
100
AcDbLine
 10
124.428984
 20
68.769616
 30
0.0
 11
123.062848
 21
70.135752
 31
0.0
  0
SPLINE
  5
1a1
100
AcDbEntity
  8
Cutout
 62
7
100
AcDbSpline
 70
8
 71
3
 72
8
 73
4
 74
0
 40
0
 40
0
 40
0
 40
0
 40
1
 40
1
 40
1
 40
1
 10
123.062848
 20
70.135752
 30
0.0
 10
112.913858
 20
65.772964
 30
0.0
 10
101.130916
 20
68.032783
 30
0.0
 10
93.316131
 20
75.840795
 30
0.0
  0
SPLINE
  5
1a2
100
AcDbEntity
  8
Cutout
 62
7
100
AcDbSpline
 70
8
 71
3
 72
8
 73
4
 74
0
 40
0
 40
0
 40
0
 40
0
 40
1
 40
1
 40
1
 40
1
 10
93.316131
 20
75.840795
 30
0.0
 10
85.514459
 20
83.655941
 30
0.0
 10
83.258159
 20
95.434210
 30
0.0
 10
87.619281
 20
105.579318
 30
0.0
  0
LINE
  5
1a3
100
AcDbEntity
  8
Cutout
 62
7
100
AcDbLine
 10
87.619281
 20
105.579318
 30
0.0
 11
86.244958
 21
106.953639
 31
0.0
  0
SPLINE
  5
1a4
100
AcDbEntity
  8
Cutout
 62
7
100
AcDbSpline
 70
8
 71
3
 72
8
 73
4
 74
0
 40
0
 40
0
 40
0
 40
0
 40
1
 40
1
 40
1
 40
1
 10
86.244958
 20
106.953639
 30
0.0
 10
82.339915
 20
110.858939
 30
0.0
 10
82.340041
 20
117.190447
 30
0.0
 10
86.245240
 20
121.095591
 30
0.0
  0
SPLINE
  5
1a5
100
AcDbEntity
  8
Cutout
 62
7
100
AcDbSpline
 70
8
 71
3
 72
8
 73
4
 74
0
 40
0
 40
0
 40
0
 40
0
 40
1
 40
1
 40
1
 40
1
 10
86.245240
 20
121.095591
 30
0.0
 10
90.150417
 20
125.000452
 30
0.0
 10
96.481625
 20
125.000452
 30
0.0
 10
100.386803
 20
121.095591
 30
0.0
  0
SPLINE
  5
1a6
100
AcDbEntity
  8
Cutout
 62
7
100
AcDbSpline
 70
8
 71
3
 72
8
 73
4
 74
0
 40
0
 40
0
 40
0
 40
0
 40
1
 40
1
 40
1
 40
1
 10
100.386803
 20
121.095591
 30
0.0
 10
100.386803
 20
121.095591
 30
0.0
 10
101.752939
 20
119.729466
 30
0.0
 10
101.752939
 20
119.729466
 30
0.0
  0
SPLINE
  5
1a7
100
AcDbEntity
  8
Cutout
 62
7
100
AcDbSpline
 70
8
 71
3
 72
8
 73
4
 74
0
 40
0
 40
0
 40
0
 40
0
 40
1
 40
1
 40
1
 40
1
 10
101.752939
 20
119.729466
 30
0.0
 10
111.901954
 20
124.092530
 30
0.0
 10
123.685093
 20
121.832862
 30
0.0
 10
131.500039
 20
114.024824
 30
0.0
  0
SPLINE
  5
1a8
100
AcDbEntity
  8
Cutout
 62
7
100
AcDbSpline
 70
8
 71
3
 72
8
 73
4
 74
0
 40
0
 40
0
 40
0
 40
0
 40
1
 40
1
 40
1
 40
1
 10
131.500039
 20
114.024824
 30
0.0
 10
139.301757
 20
106.209516
 30
0.0
 10
141.557917
 20
94.431034
 30
0.0
 10
137.196511
 20
84.285889
 30
0.0
  0
LINE
  5
1a9
100
AcDbEntity
  8
Cutout
 62
7
100
AcDbLine
 10
137.196511
 20
84.285889
 30
0.0
 11
138.570829
 21
82.911571
 31
0.0
  0
SPLINE
  5
1aa
100
AcDbEntity
  8
Cutout
 62
7
100
AcDbSpline
 70
8
 71
3
 72
8
 73
4
 74
0
 40
0
 40
0
 40
0
 40
0
 40
1
 40
1
 40
1
 40
1
 10
138.570829
 20
82.911571
 30
0.0
 10
142.476029
 20
79.006426
 30
0.0
 10
142.476156
 20
72.674916
 30
0.0
 10
138.571111
 20
68.769616
 30
0.0
  0
LINE
  5
1ab
100
AcDbEntity
  8
Cutout
 62
7
100
AcDbLine
 10
138.571111
 20
68.769616
 30
0.0
 11
138.571331
 21
68.769616
 31
0.0
  0
SPLINE
  5
1ac
100
AcDbEntity
  8
Cutout
 62
7
100
AcDbSpline
 70
8
 71
3
 72
8
 73
4
 74
0
 40
0
 40
0
 40
0
 40
0
 40
1
 40
1
 40
1
 40
1
 10
94.907459
 20
77.431711
 30
0.0
 10
99.548986
 20
72.790184
 30
0.0
 10
105.844248
 20
70.182603
 30
0.0
 10
112.408359
 20
70.182604
 30
0.0
  0
SPLINE
  5
1ad
100
AcDbEntity
  8
Cutout
 62
7
100
AcDbSpline
 70
8
 71
3
 72
8
 73
4
 74
0
 40
0
 40
0
 40
0
 40
0
 40
1
 40
1
 40
1
 40
1
 10
112.408359
 20
70.182604
 30
0.0
 10
118.972469
 20
70.182606
 30
0.0
 10
125.267730
 20
72.790192
 30
0.0
 10
129.909255
 20
77.431721
 30
0.0
  0
SPLINE
  5
1ae
100
AcDbEntity
  8
Cutout
 62
7
100
AcDbSpline
 70
8
 71
3
 72
8
 73
4
 74
0
 40
0
 40
0
 40
0
 40
0
 40
1
 40
1
 40
1
 40
1
 10
129.909255
 20
77.431721
 30
0.0
 10
139.574721
 20
87.097199
 30
0.0
 10
139.574716
 20
102.768024
 30
0.0
 10
129.909244
 20
112.433497
 30
0.0
  0
SPLINE
  5
1af
100
AcDbEntity
  8
Cutout
 62
7
100
AcDbSpline
 70
8
 71
3
 72
8
 73
4
 74
0
 40
0
 40
0
 40
0
 40
0
 40
1
 40
1
 40
1
 40
1
 10
129.909244
 20
112.433497
 30
0.0
 10
120.243772
 20
122.098970
 30
0.0
 10
104.572946
 20
122.098975
 30
0.0
 10
94.907467
 20
112.433508
 30
0.0
  0
SPLINE
  5
1b0
100
AcDbEntity
  8
Cutout
 62
7
100
AcDbSpline
 70
8
 71
3
 72
8
 73
4
 74
0
 40
0
 40
0
 40
0
 40
0
 40
1
 40
1
 40
1
 40
1
 10
94.907467
 20
112.433508
 30
0.0
 10
90.265937
 20
107.791984
 30
0.0
 10
87.658352
 20
101.496722
 30
0.0
 10
87.658350
 20
94.932611
 30
0.0
  0
SPLINE
  5
1b1
100
AcDbEntity
  8
Cutout
 62
7
100
AcDbSpline
 70
8
 71
3
 72
8
 73
4
 74
0
 40
0
 40
0
 40
0
 40
0
 40
1
 40
1
 40
1
 40
1
 10
87.658350
 20
94.932611
 30
0.0
 10
87.658349
 20
88.368500
 30
0.0
 10
90.265931
 20
82.073238
 30
0.0
 10
94.907459
 20
77.431711
 30
0.0
  0
LINE
  5
1b2
100
AcDbEntity
  8
Cutout
 62
7
100
AcDbLine
 10
94.907459
 20
77.431711
 30
0.0
 11
94.907459
 21
77.431711
 31
0.0
  0
SPLINE
  5
1b3
100
AcDbEntity
  8
Cutout
 62
7
100
AcDbSpline
 70
8
 71
3
 72
8
 73
4
 74
0
 40
0
 40
0
 40
0
 40
0
 40
1
 40
1
 40
1
 40
1
 10
89.957726
 20
114.908371
 30
0.0
 10
90.285915
 20
114.580182
 30
0.0
 10
90.731035
 20
114.395807
 30
0.0
 10
91.195164
 20
114.395808
 30
0.0
  0
SPLINE
  5
1b4
100
AcDbEntity
  8
Cutout
 62
7
100
AcDbSpline
 70
8
 71
3
 72
8
 73
4
 74
0
 40
0
 40
0
 40
0
 40
0
 40
1
 40
1
 40
1
 40
1
 10
91.195164
 20
114.395808
 30
0.0
 10
91.659294
 20
114.395808
 30
0.0
 10
92.104414
 20
114.580183
 30
0.0
 10
92.432602
 20
114.908373
 30
0.0
  0
SPLINE
  5
1b5
100
AcDbEntity
  8
Cutout
 62
7
100
AcDbSpline
 70
8
 71
3
 72
8
 73
4
 74
0
 40
0
 40
0
 40
0
 40
0
 40
1
 40
1
 40
1
 40
1
 10
92.432602
 20
114.908373
 30
0.0
 10
92.760792
 20
115.236562
 30
0.0
 10
92.945168
 20
115.681682
 30
0.0
 10
92.945168
 20
116.145811
 30
0.0
  0
SPLINE
  5
1b6
100
AcDbEntity
  8
Cutout
 62
7
100
AcDbSpline
 70
8
 71
3
 72
8
 73
4
 74
0
 40
0
 40
0
 40
0
 40
0
 40
1
 40
1
 40
1
 40
1
 10
92.945168
 20
116.145811
 30
0.0
 10
92.945168
 20
116.609941
 30
0.0
 10
92.760794
 20
117.055061
 30
0.0
 10
92.432604
 20
117.383250
 30
0.0
  0
SPLINE
  5
1b7
100
AcDbEntity
  8
Cutout
 62
7
100
AcDbSpline
 70
8
 71
3
 72
8
 73
4
 74
0
 40
0
 40
0
 40
0
 40
0
 40
1
 40
1
 40
1
 40
1
 10
92.432604
 20
117.383250
 30
0.0
 10
92.104415
 20
117.711439
 30
0.0
 10
91.659295
 20
117.895814
 30
0.0
 10
91.195165
 20
117.895814
 30
0.0
  0
SPLINE
  5
1b8
100
AcDbEntity
  8
Cutout
 62
7
100
AcDbSpline
 70
8
 71
3
 72
8
 73
4
 74
0
 40
0
 40
0
 40
0
 40
0
 40
1
 40
1
 40
1
 40
1
 10
91.195165
 20
117.895814
 30
0.0
 10
90.731036
 20
117.895813
 30
0.0
 10
90.285916
 20
117.711438
 30
0.0
 10
89.957728
 20
117.383248
 30
0.0
  0
SPLINE
  5
1b9
100
AcDbEntity
  8
Cutout
 62
7
100
AcDbSpline
 70
8
 71
3
 72
8
 73
4
 74
0
 40
0
 40
0
 40
0
 40
0
 40
1
 40
1
 40
1
 40
1
 10
89.957728
 20
117.383248
 30
0.0
 10
89.629538
 20
117.055060
 30
0.0
 10
89.445162
 20
116.609940
 30
0.0
 10
89.445162
 20
116.145810
 30
0.0
  0
SPLINE
  5
1ba
100
AcDbEntity
  8
Cutout
 62
7
100
AcDbSpline
 70
8
 71
3
 72
8
 73
4
 74
0
 40
0
 40
0
 40
0
 40
0
 40
1
 40
1
 40
1
 40
1
 10
89.445162
 20
116.145810
 30
0.0
 10
89.445162
 20
115.681680
 30
0.0
 10
89.629536
 20
115.236560
 30
0.0
 10
89.957726
 20
114.908371
 30
0.0
  0
LINE
  5
1bb
100
AcDbEntity
  8
Cutout
 62
7
100
AcDbLine
 10
89.957726
 20
114.908371
 30
0.0
 11
89.957726
 21
114.908371
 31
0.0
  0
SPLINE
  5
1bc
100
AcDbEntity
  8
Cutout
 62
7
100
AcDbSpline
 70
8
 71
3
 72
8
 73
4
 74
0
 40
0
 40
0
 40
0
 40
0
 40
1
 40
1
 40
1
 40
1
 10
132.384128
 20
72.481969
 30
0.0
 10
132.712317
 20
72.153780
 30
0.0
 10
133.157437
 20
71.969405
 30
0.0
 10
133.621567
 20
71.969406
 30
0.0
  0
SPLINE
  5
1bd
100
AcDbEntity
  8
Cutout
 62
7
100
AcDbSpline
 70
8
 71
3
 72
8
 73
4
 74
0
 40
0
 40
0
 40
0
 40
0
 40
1
 40
1
 40
1
 40
1
 10
133.621567
 20
71.969406
 30
0.0
 10
134.085696
 20
71.969406
 30
0.0
 10
134.530816
 20
72.153782
 30
0.0
 10
134.859004
 20
72.481971
 30
0.0
  0
SPLINE
  5
1be
100
AcDbEntity
  8
Cutout
 62
7
100
AcDbSpline
 70
8
 71
3
 72
8
 73
4
 74
0
 40
0
 40
0
 40
0
 40
0
 40
1
 40
1
 40
1
 40
1
 10
134.859004
 20
72.481971
 30
0.0
 10
135.187194
 20
72.810160
 30
0.0
 10
135.371569
 20
73.255279
 30
0.0
 10
135.371570
 20
73.719409
 30
0.0
  0
SPLINE
  5
1bf
100
AcDbEntity
  8
Cutout
 62
7
100
AcDbSpline
 70
8
 71
3
 72
8
 73
4
 74
0
 40
0
 40
0
 40
0
 40
0
 40
1
 40
1
 40
1
 40
1
 10
135.371570
 20
73.719409
 30
0.0
 10
135.371570
 20
74.183538
 30
0.0
 10
135.187196
 20
74.628659
 30
0.0
 10
134.859007
 20
74.956848
 30
0.0
  0
SPLINE
  5
1c0
100
AcDbEntity
  8
Cutout
 62
7
100
AcDbSpline
 70
8
 71
3
 72
8
 73
4
 74
0
 40
0
 40
0
 40
0
 40
0
 40
1
 40
1
 40
1
 40
1
 10
134.859007
 20
74.956848
 30
0.0
 10
134.530817
 20
75.285036
 30
0.0
 10
134.085698
 20
75.469411
 30
0.0
 10
133.621568
 20
75.469410
 30
0.0
  0
SPLINE
  5
1c1
100
AcDbEntity
  8
Cutout
 62
7
100
AcDbSpline
 70
8
 71
3
 72
8
 73
4
 74
0
 40
0
 40
0
 40
0
 40
0
 40
1
 40
1
 40
1
 40
1
 10
133.621568
 20
75.469410
 30
0.0
 10
133.157439
 20
75.469409
 30
0.0
 10
132.712320
 20
75.285034
 30
0.0
 10
132.384131
 20
74.956844
 30
0.0
  0
SPLINE
  5
1c2
100
AcDbEntity
  8
Cutout
 62
7
100
AcDbSpline
 70
8
 71
3
 72
8
 73
4
 74
0
 40
0
 40
0
 40
0
 40
0
 40
1
 40
1
 40
1
 40
1
 10
132.384131
 20
74.956844
 30
0.0
 10
132.055942
 20
74.628656
 30
0.0
 10
131.871566
 20
74.183537
 30
0.0
 10
131.871566
 20
73.719407
 30
0.0
  0
SPLINE
  5
1c3
100
AcDbEntity
  8
Cutout
 62
7
100
AcDbSpline
 70
8
 71
3
 72
8
 73
4
 74
0
 40
0
 40
0
 40
0
 40
0
 40
1
 40
1
 40
1
 40
1
 10
131.871566
 20
73.719407
 30
0.0
 10
131.871565
 20
73.255278
 30
0.0
 10
132.055939
 20
72.810158
 30
0.0
 10
132.384128
 20
72.481969
 30
0.0
  0
LINE
  5
1c4
100
AcDbEntity
  8
Cutout
 62
7
100
AcDbLine
 10
132.384128
 20
72.481969
 30
0.0
 11
132.384128
 21
72.481969
 31
0.0
  0
LINE
  5
1c5
100
AcDbEntity
  8
exclude
 62
7
100
AcDbLine
 10
33.349931
 20
52.400179
 30
0.0
 11
33.349931
 21
38.399863
 31
0.0
  0
LINE
  5
1c6
100
AcDbEntity
  8
exclude
 62
7
100
AcDbLine
 10
33.349931
 20
38.399863
 30
0.0
 11
29.249990
 21
38.399863
 31
0.0
  0
LINE
  5
1c7
100
AcDbEntity
  8
exclude
 62
7
100
AcDbLine
 10
29.249990
 20
38.399863
 30
0.0
 11
29.249990
 21
0.000007
 31
0.0
  0
LINE
  5
1c8
100
AcDbEntity
  8
exclude
 62
7
100
AcDbLine
 10
29.249990
 20
0.000007
 30
0.0
 11
57.049982
 21
0.000007
 31
0.0
  0
LINE
  5
1c9
100
AcDbEntity
  8
exclude
 62
7
100
AcDbLine
 10
57.049982
 20
0.000007
 30
0.0
 11
57.049982
 21
38.399863
 31
0.0
  0
LINE
  5
1ca
100
AcDbEntity
  8
exclude
 62
7
100
AcDbLine
 10
57.049982
 20
38.399863
 30
0.0
 11
52.950044
 21
38.399863
 31
0.0
  0
LINE
  5
1cb
100
AcDbEntity
  8
exclude
 62
7
100
AcDbLine
 10
52.950044
 20
38.399863
 30
0.0
 11
52.950044
 21
52.400179
 31
0.0
  0
LINE
  5
1cc
100
AcDbEntity
  8
exclude
 62
7
100
AcDbLine
 10
52.950044
 20
52.400179
 30
0.0
 11
46.650204
 21
52.400179
 31
0.0
  0
LINE
  5
1cd
100
AcDbEntity
  8
exclude
 62
7
100
AcDbLine
 10
46.650204
 20
52.400179
 30
0.0
 11
46.650204
 21
38.399863
 31
0.0
  0
LINE
  5
1ce
100
AcDbEntity
  8
exclude
 62
7
100
AcDbLine
 10
46.650204
 20
38.399863
 30
0.0
 11
46.300183
 21
38.399863
 31
0.0
  0
LINE
  5
1cf
100
AcDbEntity
  8
exclude
 62
7
100
AcDbLine
 10
46.300183
 20
38.399863
 30
0.0
 11
46.300183
 21
52.400179
 31
0.0
  0
LINE
  5
1d0
100
AcDbEntity
  8
exclude
 62
7
100
AcDbLine
 10
46.300183
 20
52.400179
 30
0.0
 11
40.000342
 21
52.400179
 31
0.0
  0
LINE
  5
1d1
100
AcDbEntity
  8
exclude
 62
7
100
AcDbLine
 10
40.000342
 20
52.400179
 30
0.0
 11
40.000342
 21
38.399863
 31
0.0
  0
LINE
  5
1d2
100
AcDbEntity
  8
exclude
 62
7
100
AcDbLine
 10
40.000342
 20
38.399863
 30
0.0
 11
39.650322
 21
38.399863
 31
0.0
  0
LINE
  5
1d3
100
AcDbEntity
  8
exclude
 62
7
100
AcDbLine
 10
39.650322
 20
38.399863
 30
0.0
 11
39.650322
 21
52.400179
 31
0.0
  0
LINE
  5
1d4
100
AcDbEntity
  8
exclude
 62
7
100
AcDbLine
 10
39.650322
 20
52.400179
 30
0.0
 11
33.349931
 21
52.400179
 31
0.0
  0
LINE
  5
1d5
100
AcDbEntity
  8
exclude
 62
7
100
AcDbLine
 10
33.349931
 20
52.400179
 30
0.0
 11
33.349931
 21
52.400179
 31
0.0
  0
LINE
  5
1d6
100
AcDbEntity
  8
exclude
 62
7
100
AcDbLine
 10
71.224740
 20
25.999998
 30
0.0
 11
95.224740
 21
25.999998
 31
0.0
  0
LINE
  5
1d7
100
AcDbEntity
  8
exclude
 62
7
100
AcDbLine
 10
95.224740
 20
25.999998
 30
0.0
 11
95.224740
 21
-0.000002
 31
0.0
  0
LINE
  5
1d8
100
AcDbEntity
  8
exclude
 62
7
100
AcDbLine
 10
95.224740
 20
-0.000002
 30
0.0
 11
71.224740
 21
-0.000002
 31
0.0
  0
LINE
  5
1d9
100
AcDbEntity
  8
exclude
 62
7
100
AcDbLine
 10
71.224740
 20
-0.000002
 30
0.0
 11
71.224740
 21
25.999998
 31
0.0
  0
LINE
  5
1da
100
AcDbEntity
  8
exclude
 62
7
100
AcDbLine
 10
104.067781
 20
27.999997
 30
0.0
 11
128.067781
 21
27.999997
 31
0.0
  0
LINE
  5
1db
100
AcDbEntity
  8
exclude
 62
7
100
AcDbLine
 10
128.067781
 20
27.999997
 30
0.0
 11
128.067781
 21
-0.000004
 31
0.0
  0
LINE
  5
1dc
100
AcDbEntity
  8
exclude
 62
7
100
AcDbLine
 10
128.067781
 20
-0.000004
 30
0.0
 11
104.067781
 21
-0.000004
 31
0.0
  0
LINE
  5
1dd
100
AcDbEntity
  8
exclude
 62
7
100
AcDbLine
 10
104.067781
 20
-0.000004
 30
0.0
 11
104.067781
 21
27.999997
 31
0.0
  0
LINE
  5
1de
100
AcDbEntity
  8
markers
 62
7
100
AcDbLine
 10
3.500001
 20
217.500199
 30
0.0
 11
8.500001
 21
217.500199
 31
0.0
  0
LINE
  5
1df
100
AcDbEntity
  8
markers
 62
7
100
AcDbLine
 10
8.500001
 20
217.500199
 30
0.0
 11
8.500001
 21
212.500199
 31
0.0
  0
LINE
  5
1e0
100
AcDbEntity
  8
markers
 62
7
100
AcDbLine
 10
8.500001
 20
212.500199
 30
0.0
 11
3.500001
 21
212.500199
 31
0.0
  0
LINE
  5
1e1
100
AcDbEntity
  8
markers
 62
7
100
AcDbLine
 10
3.500001
 20
212.500199
 30
0.0
 11
3.500001
 21
217.500199
 31
0.0
  0
LINE
  5
1e2
100
AcDbEntity
  8
markers
 62
7
100
AcDbLine
 10
141.499967
 20
8.499827
 30
0.0
 11
146.499967
 21
8.499827
 31
0.0
  0
LINE
  5
1e3
100
AcDbEntity
  8
markers
 62
7
100
AcDbLine
 10
146.499967
 20
8.499827
 30
0.0
 11
146.499967
 21
3.499827
 31
0.0
  0
LINE
  5
1e4
100
AcDbEntity
  8
markers
 62
7
100
AcDbLine
 10
146.499967
 20
3.499827
 30
0.0
 11
141.499967
 21
3.499827
 31
0.0
  0
LINE
  5
1e5
100
AcDbEntity
  8
markers
 62
7
100
AcDbLine
 10
141.499967
 20
3.499827
 30
0.0
 11
141.499967
 21
8.499827
 31
0.0
  0
LINE
  5
1e6
100
AcDbEntity
  8
markers
 62
7
100
AcDbLine
 10
3.500001
 20
8.499827
 30
0.0
 11
8.500001
 21
8.499827
 31
0.0
  0
LINE
  5
1e7
100
AcDbEntity
  8
markers
 62
7
100
AcDbLine
 10
8.500001
 20
8.499827
 30
0.0
 11
8.500001
 21
3.499827
 31
0.0
  0
LINE
  5
1e8
100
AcDbEntity
  8
markers
 62
7
100
AcDbLine
 10
8.500001
 20
3.499827
 30
0.0
 11
3.500001
 21
3.499827
 31
0.0
  0
LINE
  5
1e9
100
AcDbEntity
  8
markers
 62
7
100
AcDbLine
 10
3.500001
 20
3.499827
 30
0.0
 11
3.500001
 21
8.499827
 31
0.0
  0
LINE
  5
1ea
100
AcDbEntity
  8
markers
 62
7
100
AcDbLine
 10
141.499967
 20
217.500199
 30
0.0
 11
146.499967
 21
217.500199
 31
0.0
  0
LINE
  5
1eb
100
AcDbEntity
  8
markers
 62
7
100
AcDbLine
 10
146.499967
 20
217.500199
 30
0.0
 11
146.499967
 21
212.500199
 31
0.0
  0
LINE
  5
1ec
100
AcDbEntity
  8
markers
 62
7
100
AcDbLine
 10
146.499967
 20
212.500199
 30
0.0
 11
141.499967
 21
212.500199
 31
0.0
  0
LINE
  5
1ed
100
AcDbEntity
  8
markers
 62
7
100
AcDbLine
 10
141.499967
 20
212.500199
 30
0.0
 11
141.499967
 21
217.500199
 31
0.0
  0
ENDSEC
  0
SECTION
  2
OBJECTS
  0
DICTIONARY
  5
C
330
0
100
AcDbDictionary
  3
ACAD_GROUP
350
D
  3
ACAD_MLINESTYLE
350
17
  0
DICTIONARY
  5
D
330
C
100
AcDbDictionary
  0
DICTIONARY
  5
1A
330
C
100
AcDbDictionary
  0
DICTIONARY
  5
17
330
C
100
AcDbDictionary
  3
STANDARD
350
18
  0
DICTIONARY
  5
19
330
C
100
AcDbDictionary
  0
ENDSEC
  0
EOF
